UKULELE FANDANGO
As recorded by Der mit der Ukulele
(From the 2005 Album OMAS MARMELADE)

Transcribed by Alexander Wandrowsky

Music by Alexander Wandrowsky
Arranged by Alexander Wandrowsky


Bm
2 0 0 0
D
x 0 0 3
G
2 0 1 0
A7
0 2 1 2
F#7
1 2 0 2
F#m7
0 2 0 2
E7
2 0 2 0

    D
   2/4
    Gtr I
    S S S S S S E   S S S S  S S E   S S S S  S S E
||----------------|----------------|----------------|
||o---0---0-----0-|---0---0------0-|---0---0------0-|
||o-----0---------|-----0----------|-----0----------|
||--5-------4-----|-2--------0-----|-5--------4-----|


                                    G    D
  S S S S  S S E   S S S S  S S E   E E  E E
|----------------|----------------|-----------|
|---0---0------0-|---0---0------0-|-1-1--0----|
|-----0----------|-----0----------|-----------|
|-2--------0-----|-2--------0-----|-2-2--0----|


  F#7           Bm                A7            D
  S S S S S S E   S S S S S S E   S S S S S S E
|-------------2-|-------------0-|-------------2-|
|---0---0-------|---0---0-------|---1---1-------|
|-----2---------|-----0---------|-----2---------|
|-1-------1-----|-2-------2-----|-0-------0-----|


          A7                  D
  E E E E   S S S S S S E   E  E E E
|-3-5-7---|-------------2-|----3-3----|
|---------|---1---1-------|-----------|
|---------|-----2---------|-----------|
|-0-0-0---|-0-------0-----|----0-0----|


  D           G   D A7D
  S S S S S S E   E E E E   S S S S E S S   S S S S E E
|---3---------0-|---------|---------------|-------------|
|-------0-------|-3-1-0---|---0---0---0-1-|---3---3-----|
|-----0---------|---------|-----0---------|-----0-------|
|-0-------0-----|---------|-0-------0-----|-0-------0---|


              G   D A  D     A7                 D
  S S S S S S E   E E  E E   S S S S S S E    E E E E
|---3---------0-|----------|-------------2--|---3-3------|
|-------0-------|-3-1--0---|---1---1--------|------------|
|-----0---------|----------|-----2----------|------------|
|-0-------0-----|----------|-0-------0------|---0-0------|


  E7              A
  S S S S E E   E E E E   S S S S E E   S S S S E E
|-----------0-|---------|-------------|-------------|
|---2---2-----|---3-3---|---3---3---5-|---3---3---5-|
|-----0-------|---------|-----0-------|-----0-------|
|-2-------2---|---0-0---|-3-------5---|-3-------5---|


                             A7                D
  S S S S E E   S S S S Q    S S S S S S E   E E E E
|-------------|------------|-------------2-|---3-3-----||
|---5---5---3-|---2---2----|---1---1-------|----------o||
|-----0-------|-----0------|-----2---------|----------o||
|-5-------3---|-2-------0--|-0-------0-----|---0-0-----||



Duration Legend
---------------
W - whole; H - half; Q - quarter; E - 8th; S - 16th; T - 32nd; X - 64th; a - acciaccatura
+ - note tied to previous; . - note dotted; .. - note double dotted
Uncapitalized letters represent notes that are staccato (1/2 duration)
Irregular groupings are notated above the duration line
Duration letters will always appear directly above the note/fret number it represents the
duration for.  Duration letters with no fret number below them represent rests.  Multi-
bar rests are notated in the form Wxn, where n is the number of bars to rest for.  Low
melody durations appear below the staff

Tablature Legend
----------------
 h   - hammer-on
 p   - pull-off
 b   - bend
 pb  - pre-bend
 r   - bend release (if no number after the r, then release immediately)
 /\  - slide into or out of (from/to "nowhere")
 s   - legato slide
 S   - shift slide
<n> - natural harmonic
[n]  - artificial harmonic
n(n) - tapped harmonic
 ~   - vibrato
 tr  - trill
 T   - tap
 TP  - trem. picking
 PM  - palm muting
\n/  - tremolo bar dip; n = amount to dip
 \n  - tremolo bar down
 n/  - tremolo bar up
/n\  - tremolo bar inverted dip
 =   - hold bend; also acts as connecting device for hammers/pulls
 <> - volume swell (louder/softer)
 x   - on rhythm slash represents muted slash
 o   - on rhythm slash represents single note slash

Misc Legend
-----------
 |  - bar
||  - double bar
||o - repeat start
o|| - repeat end
*|  - double bar (ending)
 :  - bar (freetime)
 $  - Segno
 &  - Coda
Tempo markers - <E/E./Q/Q./H/H.> = BPM(8/16=s8/s16), where s8 = swing 8ths, s16 = swing 16ths


** Generated using Power Tab Editor by Brad Larsen: The Official Power Tab Web Site