TANZLIED IN G MOLL / DANCE TUNE IN G MINOR
As recorded by Der mit der Ukulele


Music by Alexander Wandrowsky
Arranged by Alexander Wandrowsky


   4/4
    Gtr I
    E E E E E E E E   E E E E E E E E   E E E E E E E E   E E E E E E Q
||--------------1---|-----------------|-------------1-3-|-1---------------|
||o-1-3-4-1-3-4-----|-0-1-3-0-1-3-4---|-1-3-4-1-3-4-----|---4-3-0-1---1---|
||o---------------0-|---------------0-|-----------------|-----------0-----|
||------------------|-----------------|-----------------|-----------------|


  Gm      D7        D       Gm        Gm      D7        D       Gm
  E E E E E E E E   E E E E E E E E   E E E E E E E E   E E E E E E Q
|-------------1---|-----------------|-------------1-3-|-1----------------|
|-1-3-4-1-3-4-----|-0-1-3-0-1-3-4---|-1-3-4-1-3-4-----|---4-3-0-1---1----|
|---------------0-|---------------0-|-----------------|-----------0------|
|-----------------|-----------------|-----------------|------------------|
|
| Gtr I
| E E E E E E E E   E E E E E E E E   E E E E E E E E   E E E E E E E E
|---3---3---1---1-|---3---3---3---3-|---3---3---1---1-|---3---3---3-3----|
|---1---1---0---0-|---0---0---1---1-|---1---1---0---0-|---0---0---1-1----|
|---0-0-----0-0---|---0-0-----0-0---|---0-0-----0-0---|---0-0-----0-0----|
|-1-------0-------|-0-------1-------|-1-------0-------|-0-------1--------|


  Cm      Gm        D7      Gm        Cm      Gm        D7      Gm
  E E E E E E E E   E E E E E E E E   E E E E E E E E   E E E E E E Q
|-1-1-1-----------|-----------------|-1-1-1-----------|------------------|
|---------4-4-4---|-3---0-3-1-3-4---|---------4-4-4---|-3---0-3-1---1----|
|-------0-------0-|---0-----------0-|-------0-------0-|---0-------0------|
|-----------------|-----------------|-----------------|------------------|
|
| E E E E E E E E   E E E E E E E E   E E E E E E E E   E E E E E E E E
|---1---1---3---3-|---1---1---3---3-|---1---1---3---3-|---1---1---3------|
|---1---1---1---1-|---0---0---1---1-|---1---1---1---1-|---0---0---1------|
|---1-1-----0-0---|---0-0-----0-0---|---1-1-----0-0---|---0-0-----0-0----|
|-3-------1-------|-0-------1-------|-3-------1-------|-0-------1--------|


  Gm      D7        D       Gm        Gm      D7        D       Gm
  E E E E E E E E   E E E E E E E E   E E E E E E E E   E E E E E E Q
|-------------1---|-----------------|-------------1-3-|-1----------------|
|-1-3-4-1-3-4-----|-0-1-3-0-1-3-4---|-1-3-4-1-3-4-----|---4-3-0-1---1----|
|---------------0-|---------------0-|-----------------|-----------0------|
|-----------------|-----------------|-----------------|------------------|
|
| Gtr I
| E E E E E E E E   E E E E E E E E   E E E E E E E E   E E E E E E E E
|---3---3---1---1-|---3---3---3---3-|---3---3---1---1-|---3---3---3-3----|
|---1---1---0---0-|---0---0---1---1-|---1---1---0---0-|---0---0---1-1----|
|---0-0-----0-0---|---0-0-----0-0---|---0-0-----0-0---|---0-0-----0-0----|
|-1-------0-------|-0-------1-------|-1-------0-------|-0-------1--------|


  Gm      Dm        A7      Dm        Gm      Dm        A7      Dm
  E E E E E E E E   E E E E E E E E   E E E E E E E E   E E E E E E Q
|-----------------|-----2-5-3-5-6---|-----------------|-----2-5-3---3-----||
|-1-1-1-----------|---1-------------|-1-1-1-----------|---1--------------o||
|-------0-3-3-3-0-|-2---------------|-------0-3-3-3-0-|-2----------------o||
|-----------------|---------------0-|-----------------|-----------0-------||
|
| E E E E E E E E   E E E E E E E E   E E E E E E E E   E E E E E E E E
|---3---3---3---3-|---2---2---3---3-|---3---3---3---3-|---2---2---3---3---||
|---1---1---3---3-|---1---1---3---3-|---1---1---3---3-|---1---1---3---3--o||
|---0-0-----3-3---|---2-2-----3-3---|---0-0-----3-3---|---2-2-----3-3----o||
|-1-------0-------|-0-------0-------|-1-------0-------|-0-------0---------||


  E E E E E E E E   E E E E E E E E   E E E E E E E E   E E E E H
|-------------1---|-----------------|-------------1-3-|-1------------*|
|-1-3-4-1-3-4-----|-0-1-3-0-1-3-4---|-1-3-4-1-3-4-----|---4-3-0-1----*|
|---------------0-|---------------0-|-----------------|--------------*|
|-----------------|-----------------|-----------------|--------------*|



Duration Legend
---------------
W - whole; H - half; Q - quarter; E - 8th; S - 16th; T - 32nd; X - 64th; a - acciaccatura
+ - note tied to previous; . - note dotted; .. - note double dotted
Uncapitalized letters represent notes that are staccato (1/2 duration)
Irregular groupings are notated above the duration line
Duration letters will always appear directly above the note/fret number it represents the
duration for.  Duration letters with no fret number below them represent rests.  Multi-
bar rests are notated in the form Wxn, where n is the number of bars to rest for.  Low
melody durations appear below the staff

Tablature Legend
----------------
 h   - hammer-on
 p   - pull-off
 b   - bend
 pb  - pre-bend
 r   - bend release (if no number after the r, then release immediately)
 /\  - slide into or out of (from/to "nowhere")
 s   - legato slide
 S   - shift slide
<n> - natural harmonic
[n]  - artificial harmonic
n(n) - tapped harmonic
 ~   - vibrato
 tr  - trill
 T   - tap
 TP  - trem. picking
 PM  - palm muting
\n/  - tremolo bar dip; n = amount to dip
 \n  - tremolo bar down
 n/  - tremolo bar up
/n\  - tremolo bar inverted dip
 =   - hold bend; also acts as connecting device for hammers/pulls
 <> - volume swell (louder/softer)
 x   - on rhythm slash represents muted slash
 o   - on rhythm slash represents single note slash

Misc Legend
-----------
 |  - bar
||  - double bar
||o - repeat start
o|| - repeat end
*|  - double bar (ending)
 :  - bar (freetime)
 $  - Segno
 &  - Coda
Tempo markers - <E/E./Q/Q./H/H.> = BPM(8/16=s8/s16), where s8 = swing 8ths, s16 = swing 16ths


** Generated using Power Tab Editor by Brad Larsen: The Official Power Tab Web Site